  0
SECTION
  2
HEADER
  9
$ACADVER
  1
AC1009
  9
$INSBASE
 10
0.0
 20
0.0
 30
0.0
  9
$EXTMIN
 10
0.0
 20
0.0
 30
0.0
  9
$EXTMAX
 10
0.0
 20
0.0
 30
0.0
  0
ENDSEC
  0
SECTION
  2
TABLES
  0
TABLE
  2
VPORT
 70
0
  0
ENDTAB
  0
TABLE
  2
LTYPE
 70
1
  0
LTYPE
  2
CONTINUOUS
 70
0
  3
Solid line
 72
65
 73
0
 40
0.0
  0
ENDTAB
  0
TABLE
  2
LAYER
 70
1
  0
LAYER
  2
0
 70
64
 62
7
  6
continuous
  0
ENDTAB
  0
TABLE
  2
STYLE
 70
1
  0
STYLE
  2
STANDARD
 70
0
 40
0
 41
1.0
 50
0.0
 71
0
 42
1
 3
ARIAL.TTF
 4

  0
ENDTAB
  0
TABLE
  2
VIEW
 70
0
  0
ENDTAB
  0
ENDSEC
  0
SECTION
  2
BLOCKS
  0
BLOCK
  8
0
  2
FUSION004
 70
0
 10
0.0
 20
0.0
 30
0.0
  3
FUSION004
  0
LINE
  8
0
 62
0
 10
-3.75
 20
-28.7
 30
0.0
 11
-3.75
 21
-25.15
 31
0.0
  0
LINE
  8
0
 62
0
 10
-3.75
 20
-25.15
 30
0.0
 11
-24.65
 21
-25.15
 31
0.0
  0
LINE
  8
0
 62
0
 10
-26.65
 20
-23.15
 30
0.0
 11
-26.65
 21
-2.03290869242
 31
0.0
  0
ARC
  8
0
 62
0
 10
-24.65
 20
-23.15
 30
0.0
 40
2.0
 50
-180.0
 51
-90.0
  0
ARC
  8
0
 62
0
 10
-27.65
 20
-2.03290869242
 30
0.0
 40
1.0
 50
0.0
 51
65.5053515286
  0
LINE
  8
0
 62
0
 10
-29.1146082488
 20
-0.266712361354
 30
0.0
 11
-27.2353917512
 21
-1.12290869242
 31
0.0
  0
ARC
  8
0
 62
0
 10
-28.7
 20
0.643287638646
 30
0.0
 40
1.0
 50
-180.0
 51
-114.494648471
  0
LINE
  8
0
 62
0
 10
-29.7
 20
0.643287638646
 30
0.0
 11
-29.7
 21
5.5
 31
0.0
  0
LINE
  8
0
 62
0
 10
-26.7
 20
5.5
 30
0.0
 11
-29.7
 21
5.5
 31
0.0
  0
LINE
  8
0
 62
0
 10
-26.7
 20
1.4
 30
0.0
 11
-26.7
 21
5.5
 31
0.0
  0
LINE
  8
0
 62
0
 10
-26.7
 20
1.4
 30
0.0
 11
-24.2
 21
1.4
 31
0.0
  0
LINE
  8
0
 62
0
 10
-24.2
 20
1.4
 30
0.0
 11
-24.2
 21
11.6
 31
0.0
  0
LINE
  8
0
 62
0
 10
-26.7
 20
11.6
 30
0.0
 11
-24.2
 21
11.6
 31
0.0
  0
LINE
  8
0
 62
0
 10
-26.7
 20
7.5
 30
0.0
 11
-26.7
 21
11.6
 31
0.0
  0
LINE
  8
0
 62
0
 10
-29.7
 20
7.5
 30
0.0
 11
-26.7
 21
7.5
 31
0.0
  0
LINE
  8
0
 62
0
 10
-29.7
 20
7.5
 30
0.0
 11
-29.7
 21
12.3567123614
 31
0.0
  0
ARC
  8
0
 62
0
 10
-28.7
 20
12.3567123614
 30
0.0
 40
1.0
 50
114.494648471
 51
-180.0
  0
LINE
  8
0
 62
0
 10
-29.1146082488
 20
13.2667123614
 30
0.0
 11
-25.7353917512
 21
14.8063288828
 31
0.0
  0
ARC
  8
0
 62
0
 10
-26.15
 20
15.7163288828
 30
0.0
 40
1.0
 50
-65.5053515286
 51
-0.0
  0
LINE
  8
0
 62
0
 10
-25.15
 20
15.7163288828
 30
0.0
 11
-25.15
 21
23.15
 31
0.0
  0
ARC
  8
0
 62
0
 10
-23.15
 20
23.15
 30
0.0
 40
2.0
 50
90.0
 51
-180.0
  0
LINE
  8
0
 62
0
 10
-23.15
 20
25.15
 30
0.0
 11
-3.75
 21
25.15
 31
0.0
  0
LINE
  8
0
 62
0
 10
-3.75
 20
25.15
 30
0.0
 11
-3.75
 21
28.7
 31
0.0
  0
LINE
  8
0
 62
0
 10
-7.25
 20
28.7
 30
0.0
 11
-3.75
 21
28.7
 31
0.0
  0
LINE
  8
0
 62
0
 10
-7.25
 20
-28.7
 30
0.0
 11
-3.75
 21
-28.7
 31
0.0
  0
LINE
  8
0
 62
0
 10
-7.25
 20
28.7
 30
0.0
 11
-7.25
 21
32.2
 31
0.0
  0
LINE
  8
0
 62
0
 10
-7.25
 20
-32.2
 30
0.0
 11
-7.25
 21
-28.7
 31
0.0
  0
LINE
  8
0
 62
0
 10
-7.25
 20
-32.2
 30
0.0
 11
-0.75
 21
-32.2
 31
0.0
  0
LINE
  8
0
 62
0
 10
-0.75
 20
-32.2
 30
0.0
 11
-0.75
 21
-21.2
 31
0.0
  0
LINE
  8
0
 62
0
 10
-21.2
 20
-21.2
 30
0.0
 11
-0.75
 21
-21.2
 31
0.0
  0
LINE
  8
0
 62
0
 10
-21.2
 20
-21.2
 30
0.0
 11
-21.2
 21
21.2
 31
0.0
  0
LINE
  8
0
 62
0
 10
-21.2
 20
21.2
 30
0.0
 11
-0.75
 21
21.2
 31
0.0
  0
LINE
  8
0
 62
0
 10
-0.75
 20
21.2
 30
0.0
 11
-0.75
 21
32.2
 31
0.0
  0
LINE
  8
0
 62
0
 10
-7.25
 20
32.2
 30
0.0
 11
-0.75
 21
32.2
 31
0.0
  0
LINE
  8
0
 62
0
 10
-24.65
 20
-13.3896210538
 30
0.0
 11
-23.15
 21
-13.3896210538
 31
0.0
  0
LINE
  8
0
 62
0
 10
-23.15
 20
-13.3896210538
 30
0.0
 11
-23.15
 21
-16.8896210538
 31
0.0
  0
LINE
  8
0
 62
0
 10
-23.15
 20
-16.8896210538
 30
0.0
 11
-24.65
 21
-16.8896210538
 31
0.0
  0
LINE
  8
0
 62
0
 10
-24.65
 20
-16.8896210538
 30
0.0
 11
-24.65
 21
-13.3896210538
 31
0.0
  0
LINE
  8
0
 62
0
 10
21.2
 20
-21.2
 30
0.0
 11
21.2
 21
21.2
 31
0.0
  0
LINE
  8
0
 62
0
 10
0.75
 20
-21.2
 30
0.0
 11
21.2
 21
-21.2
 31
0.0
  0
LINE
  8
0
 62
0
 10
0.75
 20
21.2
 30
0.0
 11
21.2
 21
21.2
 31
0.0
  0
LINE
  8
0
 62
0
 10
0.75
 20
-32.2
 30
0.0
 11
0.75
 21
-21.2
 31
0.0
  0
LINE
  8
0
 62
0
 10
0.75
 20
-32.2
 30
0.0
 11
7.25
 21
-32.2
 31
0.0
  0
LINE
  8
0
 62
0
 10
7.25
 20
-32.2
 30
0.0
 11
7.25
 21
-28.7
 31
0.0
  0
LINE
  8
0
 62
0
 10
3.75
 20
-28.7
 30
0.0
 11
7.25
 21
-28.7
 31
0.0
  0
LINE
  8
0
 62
0
 10
3.75
 20
-28.7
 30
0.0
 11
3.75
 21
-25.15
 31
0.0
  0
LINE
  8
0
 62
0
 10
23.15
 20
-25.15
 30
0.0
 11
3.75
 21
-25.15
 31
0.0
  0
ARC
  8
0
 62
0
 10
23.15
 20
-23.15
 30
0.0
 40
2.0
 50
-90.0
 51
0.0
  0
LINE
  8
0
 62
0
 10
25.15
 20
-23.15
 30
0.0
 11
25.15
 21
23.15
 31
0.0
  0
ARC
  8
0
 62
0
 10
23.15
 20
23.15
 30
0.0
 40
2.0
 50
-0.0
 51
90.0
  0
LINE
  8
0
 62
0
 10
3.75
 20
25.15
 30
0.0
 11
23.15
 21
25.15
 31
0.0
  0
LINE
  8
0
 62
0
 10
3.75
 20
25.15
 30
0.0
 11
3.75
 21
28.7
 31
0.0
  0
LINE
  8
0
 62
0
 10
3.75
 20
28.7
 30
0.0
 11
7.25
 21
28.7
 31
0.0
  0
LINE
  8
0
 62
0
 10
7.25
 20
28.7
 30
0.0
 11
7.25
 21
32.2
 31
0.0
  0
LINE
  8
0
 62
0
 10
0.75
 20
32.2
 30
0.0
 11
7.25
 21
32.2
 31
0.0
  0
LINE
  8
0
 62
0
 10
0.75
 20
21.2
 30
0.0
 11
0.75
 21
32.2
 31
0.0
  0
ENDBLK
  0
ENDSEC
  0
SECTION
  2
ENTITIES
  0
INSERT
  2
FUSION004
  8
0
 62
0
 10
0.0
 20
0.0
 30
0.0
  0
ENDSEC
  0
EOF
