  0
SECTION
  2
HEADER
  9
$ACADVER
  1
AC1009
  9
$INSBASE
 10
0.0
 20
0.0
 30
0.0
  9
$EXTMIN
 10
0.0
 20
0.0
 30
0.0
  9
$EXTMAX
 10
0.0
 20
0.0
 30
0.0
  0
ENDSEC
  0
SECTION
  2
TABLES
  0
TABLE
  2
VPORT
 70
0
  0
ENDTAB
  0
TABLE
  2
LTYPE
 70
1
  0
LTYPE
  2
CONTINUOUS
 70
0
  3
Solid line
 72
65
 73
0
 40
0.0
  0
ENDTAB
  0
TABLE
  2
LAYER
 70
1
  0
LAYER
  2
0
 70
64
 62
7
  6
continuous
  0
ENDTAB
  0
TABLE
  2
STYLE
 70
1
  0
STYLE
  2
STANDARD
 70
0
 40
0
 41
1.0
 50
0.0
 71
0
 42
1
 3
ARIAL.TTF
 4

  0
ENDTAB
  0
TABLE
  2
VIEW
 70
0
  0
ENDTAB
  0
ENDSEC
  0
SECTION
  2
BLOCKS
  0
BLOCK
  8
0
  2
POLARPATTERN
 70
0
 10
0.0
 20
0.0
 30
0.0
  3
POLARPATTERN
  0
CIRCLE
  8
0
 62
0
 10
0.0
 20
0.0
 30
0.0
 40
150.0
  0
CIRCLE
  8
0
 62
0
 10
-1.49880108324e-14
 20
-135.0
 30
0.0
 40
2.55
  0
CIRCLE
  8
0
 62
0
 10
2.99760216649e-14
 20
135.0
 30
0.0
 40
2.55
  0
CIRCLE
  8
0
 62
0
 10
-95.4594154602
 20
95.4594154602
 30
0.0
 40
2.55
  0
CIRCLE
  8
0
 62
0
 10
-95.4594154602
 20
-95.4594154602
 30
0.0
 40
2.55
  0
CIRCLE
  8
0
 62
0
 10
135.0
 20
-1.65327317885e-14
 30
0.0
 40
2.55
  0
CIRCLE
  8
0
 62
0
 10
95.4594154602
 20
-95.4594154602
 30
0.0
 40
2.55
  0
CIRCLE
  8
0
 62
0
 10
95.4594154602
 20
95.4594154602
 30
0.0
 40
2.55
  0
CIRCLE
  8
0
 62
0
 10
0.0
 20
0.0
 30
0.0
 40
120.0
  0
CIRCLE
  8
0
 62
0
 10
-135.0
 20
0.0
 30
0.0
 40
2.55
  0
ENDBLK
  0
ENDSEC
  0
SECTION
  2
ENTITIES
  0
INSERT
  2
POLARPATTERN
  8
0
 62
0
 10
0.0
 20
0.0
 30
0.0
  0
ENDSEC
  0
EOF
